杰伦新歌-等你下课-吉他谱

艺术家:周杰伦    查看原文


原调 G#
字大小

变调夹:夹 1 品

1 = G#  4/4

capo = 1

by 叶大侠


和弦:
----------------
G: 320011
D/F#: 200232
Am7: 002010
Cadd9: 32011
D: 000232
Dsus4: 000233
Bm: 224432
Em7: 022022

前奏:

-----------------------------------------------------------
------0-----0--3--0--3--0-------0-----0--3--0--3--0--------
---2----2-------------------2-----2-----------------------
-----------------------------------------------------------
-----------------------------------------------------------
---3------------------------2------------------------------

------0-----0--3--0-----0---2s3-----1-----------------
---3-----3-----------3-----------4-----4--------------
------------------------------------------------------
------------------------------------------------------
---3--------------------------------------------------
------------------------------------------------------


    G    D/F#     Am7    G 
你住的 巷子里 我租了一间公寓

G: 上面的G
---------------------
---------1p0---------
--------------0------
-----0-----------0---
---------------------
--3------------------


Am7    Dsus4  G
为了想与你不期而遇

     G    D/F#     Am7    C 
高中三年 我为什么 为什么不好好读书
Am7      D      G
没考上跟你一样的大学

       Cadd9        Em7
我找了份工作 离你宿舍很近
         Am7             G
当我开始学会做蛋饼 才发现你 不吃早餐

Cadd9       Em7
喔 你又擦肩而过
       Am7          Dsus4
你耳机听什么 能不能告诉我

G            Em7 
躺在你学校的操场看星空
    Am7       Dsus4  
教室里的灯还亮着你没走

  C          Bm  Em
记得 我写给你的情书
  C      Am7
都什么年代了
  Dsus4    D
到现在我还在写着
 
//重复 
总有一天总有一年会发现
有人默默的陪在你的身边
也许 我不该在你的世界
当你收到情书
也代表我已经走远


间奏:

----------0-------------0---------------------------0-------------0------------------
----------3-------------3-----------------3---------3-------------3----------------3--
-------------------0-------------------0----------------------0-----------------2------
------2----------------------------4------------2---------------------------0---------
---3-------------2---------------------------3-------------2-------------------------
-------------------------------0-----------------------------------------3-----------

C Em7 Bm Em Am7 D G

 
//重复第一段
Gary:学校旁 的广场 我在这等钟声响
等你下课一起走好吗
Jay:弹着琴 唱你爱的歌 暗恋一点都不痛苦
(Gary:一点都不痛苦)
Jay:痛苦的是你
合:根本没看我
 
Jay:我唱这么走心 却走不进你心里
(Gary:这么走心 进你心里)
Jay:在人来人往
合:找寻着你 守护着你 不求结局
Gary:喔 你又擦肩而过
(Jay:喔 而过)
Jay:我唱告白气球 终于你回了头
 
合:躺在你学校的操场看星空
教室里的灯还亮着你没走
记得 我写给你的情书
都什么年代了
到现在我还在写着
 
总有一天总有一年会发现
有人默默的陪在你的身边
也许 我不该在你的世界
当你收到情书
也代表我已经走远

结束:

-------------------------------------------------------------------------------3---------
-----------3--------------3---------------3----1---0-------------3------1------0---------
----------------------2--------------0-----------------------0------0----------0---------
-------0-------------------------2---------------------------------------------0---------
------------------2--------------------------------------3---------------------2---------
----3--------------------------------------------------------------------------3---------
你觉得谱怎样:

双击滚动速度: ,值越小越快。

来源:52cmajor.com