better man

艺术家:Robbie Williams    查看原文


原调
字大小

变调夹:夹 1 品

曲 : Robbie Williams

谱 : 叶大侠

编配:1 = F  4/4
原调:1=F# ,变调夹夹一品

F: 003211
Dm: 000231
Bb: 013331
C:  032010
Fsus4: 003311


Introda:
    
    F                             Fsus4

    -1-----------------------------1-------------------------
    -------1---------1------1------------1--------1----1----
    ----2--------2-------------2------3--------3----------2-
    -3--------3---------3----------3--------3-------3-------
    ----------------------------------------------------------
    ----------------------------------------------------------

     F                             Fsus4
    -1-----------------------------1------------------------
    -------1---------1------1------1------------------------
    ----2--------2-------------2---3------------------------
    -3--------3---------3----------3------------------------
    ---------------------------------------------------------
    ---------------------------------------------------------


                     F
     Send someone to love me.
               Dm
     I need to rest in arms.
                       Bb                C
     Keep me safe from harm in pouring rain.
                      F
     Give me endless summer.
                      Dm
     Lord I fear the cold.
              Bb                    C
     Feel I'm getting old before my time.

            Dm              G
     As my soul heals the shame.
               F               G
      I will grow through this pain.
              Bb            C                 F(按下面弹奏)
     Lord I'm doing all I can to be a better man.


    -1-----------------------------1------
    -------1---------1------1------1------
    ----2--------2-------------2---3------
    -3--------3---------3----------3------
    ---------------------------------------
    --------------------------------------

    
                     F
       Go easy on my conscience.
                         Dm          
       Cause it's not my fault.
                         Bb                C
       I know I've been taught to take the blame.
                        F
       Rest assured my angels 
             Dm    
       Will catch my tears.
               Bb                  C
       Walk me out of here. I'm in pain.

             Dm             G
       As my soul heals the shame.
                F               G
       I will grow through this pain.
                Bb          C                  F      G
       Lord I'm doing all I can to be a better man.


        F                                 Fsus4
      Once you've found that lover you're homeward bound. 
                   F
       Love is all around.
                   G
       Love is all around.

       F                          Fsus4
       I know some have fallen on stony ground
                         F        Fsus4
       But Love is all around.


               F
       做为一个男人 
               Dm              Bb                 C
       尝遍千种的苦         万种的艰难      那是必经的历程
               F
       生锈还是燃烧 
             Dm              Bb              C
       必须做选择        在每个心中         都有答案
           Dm           G
       从来没            不须付出的得到 
           F          G
       幸福要 一砖一瓦的建造
            Bb    C                 F      
       有个声音 对我说 to be a better man


       重复前奏结尾
你觉得谱怎样:

双击滚动速度: ,值越小越快。

来源:52cmajor.com